  0
SECTION
  2
HEADER
  9
$ACADVER
  1
AC1015
  9
$ACADMAINTVER
 70
     6
  9
$DWGCODEPAGE
  3
ANSI_1254
  9
$INSBASE
 10
0.0
 20
0.0
 30
0.0
  9
$EXTMIN
 10
0.0
 20
0.0
 30
0.0
  9
$EXTMAX
 10
279.4
 20
215.9
 30
0.0
  9
$LIMMIN
 10
0.0
 20
0.0
  9
$LIMMAX
 10
279.4
 20
215.9
  9
$ORTHOMODE
 70
     0
  9
$REGENMODE
 70
     1
  9
$FILLMODE
 70
     1
  9
$QTEXTMODE
 70
     0
  9
$MIRRTEXT
 70
     1
  9
$LTSCALE
 40
1.0
  9
$ATTMODE
 70
     1
  9
$TEXTSIZE
 40
3.5
  9
$TRACEWID
 40
1.0
  9
$TEXTSTYLE
  7
Standard
  9
$CLAYER
  8
0
  9
$CELTYPE
  6
ByLayer
  9
$CECOLOR
 62
   256
  9
$CELTSCALE
 40
1.0
  9
$DISPSILH
 70
     0
  9
$DIMSCALE
 40
1.0
  9
$DIMASZ
 40
3.5
  9
$DIMEXO
 40
1.0
  9
$DIMDLI
 40
3.75
  9
$DIMRND
 40
0.0
  9
$DIMDLE
 40
0.0
  9
$DIMEXE
 40
1.0
  9
$DIMTP
 40
0.0
  9
$DIMTM
 40
0.0
  9
$DIMTXT
 40
3.5
  9
$DIMCEN
 40
2.5
  9
$DIMTSZ
 40
0.0
  9
$DIMTOL
 70
     0
  9
$DIMLIM
 70
     0
  9
$DIMTIH
 70
     1
  9
$DIMTOH
 70
     1
  9
$DIMSE1
 70
     0
  9
$DIMSE2
 70
     0
  9
$DIMTAD
 70
     1
  9
$DIMZIN
 70
     0
  9
$DIMBLK
  1

  9
$DIMASO
 70
     1
  9
$DIMSHO
 70
     1
  9
$DIMPOST
  1

  9
$DIMAPOST
  1

  9
$DIMALT
 70
     0
  9
$DIMALTD
 70
     3
  9
$DIMALTF
 40
0.0393700787
  9
$DIMLFAC
 40
1.0
  9
$DIMTOFL
 70
     1
  9
$DIMTVP
 40
0.0
  9
$DIMTIX
 70
     0
  9
$DIMSOXD
 70
     0
  9
$DIMSAH
 70
     0
  9
$DIMBLK1
  1

  9
$DIMBLK2
  1

  9
$DIMSTYLE
  2
ISO-25
  9
$DIMCLRD
 70
     0
  9
$DIMCLRE
 70
     0
  9
$DIMCLRT
 70
     0
  9
$DIMTFAC
 40
1.0
  9
$DIMGAP
 40
1.524
  9
$DIMJUST
 70
     0
  9
$DIMSD1
 70
     0
  9
$DIMSD2
 70
     0
  9
$DIMTOLJ
 70
     0
  9
$DIMTZIN
 70
     0
  9
$DIMALTZ
 70
     0
  9
$DIMALTTZ
 70
     0
  9
$DIMUPT
 70
     0
  9
$DIMDEC
 70
     2
  9
$DIMTDEC
 70
     2
  9
$DIMALTU
 70
     2
  9
$DIMALTTD
 70
     3
  9
$DIMTXSTY
  7
Standard
  9
$DIMAUNIT
 70
     0
  9
$DIMADEC
 70
     2
  9
$DIMALTRND
 40
0.0
  9
$DIMAZIN
 70
     0
  9
$DIMDSEP
 70
    44
  9
$DIMATFIT
 70
     3
  9
$DIMFRAC
 70
     0
  9
$DIMLDRBLK
  1

  9
$DIMLUNIT
 70
     2
  9
$DIMLWD
 70
    -2
  9
$DIMLWE
 70
    -2
  9
$DIMTMOVE
 70
     0
  9
$LUNITS
 70
     2
  9
$LUPREC
 70
     2
  9
$SKETCHINC
 40
1.0
  9
$FILLETRAD
 40
10.0
  9
$AUNITS
 70
     0
  9
$AUPREC
 70
     2
  9
$MENU
  1
.
  9
$ELEVATION
 40
0.0
  9
$PELEVATION
 40
0.0
  9
$THICKNESS
 40
0.0
  9
$LIMCHECK
 70
     0
  9
$CHAMFERA
 40
0.0
  9
$CHAMFERB
 40
0.0
  9
$CHAMFERC
 40
0.0
  9
$CHAMFERD
 40
0.0
  9
$SKPOLY
 70
     0
  9
$TDCREATE
 40
2458985.691361459
  9
$TDUCREATE
 40
2458985.566361459
  9
$TDUPDATE
 40
2458985.691361805
  9
$TDUUPDATE
 40
2458985.566361805
  9
$TDINDWG
 40
0.0000000116
  9
$TDUSRTIMER
 40
0.0000000116
  9
$USRTIMER
 70
     1
  9
$ANGBASE
 50
0.0
  9
$ANGDIR
 70
     0
  9
$PDMODE
 70
     0
  9
$PDSIZE
 40
-1.0
  9
$PLINEWID
 40
0.0
  9
$SPLFRAME
 70
     0
  9
$SPLINETYPE
 70
     6
  9
$SPLINESEGS
 70
     8
  9
$HANDSEED
  5
CB
  9
$SURFTAB1
 70
     6
  9
$SURFTAB2
 70
     6
  9
$SURFTYPE
 70
     6
  9
$SURFU
 70
     6
  9
$SURFV
 70
     6
  9
$UCSBASE
  2

  9
$UCSNAME
  2

  9
$UCSORG
 10
0.0
 20
0.0
 30
0.0
  9
$UCSXDIR
 10
1.0
 20
0.0
 30
0.0
  9
$UCSYDIR
 10
0.0
 20
1.0
 30
0.0
  9
$UCSORTHOREF
  2

  9
$UCSORTHOVIEW
 70
     0
  9
$UCSORGTOP
 10
0.0
 20
0.0
 30
0.0
  9
$UCSORGBOTTOM
 10
0.0
 20
0.0
 30
0.0
  9
$UCSORGLEFT
 10
0.0
 20
0.0
 30
0.0
  9
$UCSORGRIGHT
 10
0.0
 20
0.0
 30
0.0
  9
$UCSORGFRONT
 10
0.0
 20
0.0
 30
0.0
  9
$UCSORGBACK
 10
0.0
 20
0.0
 30
0.0
  9
$PUCSBASE
  2

  9
$PUCSNAME
  2

  9
$PUCSORG
 10
0.0
 20
0.0
 30
0.0
  9
$PUCSXDIR
 10
1.0
 20
0.0
 30
0.0
  9
$PUCSYDIR
 10
0.0
 20
1.0
 30
0.0
  9
$PUCSORTHOREF
  2

  9
$PUCSORTHOVIEW
 70
     0
  9
$PUCSORGTOP
 10
0.0
 20
0.0
 30
0.0
  9
$PUCSORGBOTTOM
 10
0.0
 20
0.0
 30
0.0
  9
$PUCSORGLEFT
 10
0.0
 20
0.0
 30
0.0
  9
$PUCSORGRIGHT
 10
0.0
 20
0.0
 30
0.0
  9
$PUCSORGFRONT
 10
0.0
 20
0.0
 30
0.0
  9
$PUCSORGBACK
 10
0.0
 20
0.0
 30
0.0
  9
$USERI1
 70
     0
  9
$USERI2
 70
     0
  9
$USERI3
 70
     0
  9
$USERI4
 70
     0
  9
$USERI5
 70
     0
  9
$USERR1
 40
0.0
  9
$USERR2
 40
0.0
  9
$USERR3
 40
0.0
  9
$USERR4
 40
0.0
  9
$USERR5
 40
0.0
  9
$WORLDVIEW
 70
     1
  9
$SHADEDGE
 70
     3
  9
$SHADEDIF
 70
    70
  9
$TILEMODE
 70
     1
  9
$MAXACTVP
 70
    64
  9
$PINSBASE
 10
0.0
 20
0.0
 30
0.0
  9
$PLIMCHECK
 70
     0
  9
$PEXTMIN
 10
1.0000000000E+20
 20
1.0000000000E+20
 30
1.0000000000E+20
  9
$PEXTMAX
 10
-1.0000000000E+20
 20
-1.0000000000E+20
 30
-1.0000000000E+20
  9
$PLIMMIN
 10
0.0
 20
0.0
  9
$PLIMMAX
 10
420.0
 20
297.0
  9
$UNITMODE
 70
     0
  9
$VISRETAIN
 70
     1
  9
$PLINEGEN
 70
     0
  9
$PSLTSCALE
 70
     1
  9
$TREEDEPTH
 70
  3020
  9
$CMLSTYLE
  2
Standard
  9
$CMLJUST
 70
     0
  9
$CMLSCALE
 40
20.0
  9
$PROXYGRAPHICS
 70
     1
  9
$MEASUREMENT
 70
     1
  9
$CELWEIGHT
370
    -1
  9
$ENDCAPS
280
     0
  9
$JOINSTYLE
280
     0
  9
$LWDISPLAY
290
     1
  9
$INSUNITS
 70
     4
  9
$HYPERLINKBASE
  1

  9
$STYLESHEET
  1

  9
$XEDIT
290
     1
  9
$CEPSNTYPE
380
     0
  9
$PSTYLEMODE
290
     1
  9
$FINGERPRINTGUID
  2
{cecda83b-0d8c-453c-9754-c856433e0720}
  9
$VERSIONGUID
  2
{FAEB1C32-E019-11D5-929B-00C0DF256EC4}
  9
$EXTNAMES
290
     1
  9
$PSVPSCALE
 40
0.0
  9
$OLESTARTUP
290
     0
  0
ENDSEC
  0
SECTION
  2
CLASSES
  0
CLASS
  1
ACDBDICTIONARYWDFLT
  2
AcDbDictionaryWithDefault
  3
ObjectDBX Classes
 90
        0
280
     0
281
     0
  0
CLASS
  1
VISUALSTYLE
  2
AcDbVisualStyle
  3
ObjectDBX Classes
 90
     4095
280
     0
281
     0
  0
CLASS
  1
MATERIAL
  2
AcDbMaterial
  3
ObjectDBX Classes
 90
     1153
280
     0
281
     0
  0
CLASS
  1
SCALE
  2
AcDbScale
  3
ObjectDBX Classes
 90
     1153
280
     0
281
     0
  0
CLASS
  1
TABLESTYLE
  2
AcDbTableStyle
  3
ObjectDBX Classes
 90
     4095
280
     0
281
     0
  0
CLASS
  1
MLEADERSTYLE
  2
AcDbMLeaderStyle
  3
ACDB_MLEADERSTYLE_CLASS
 90
     4095
280
     0
281
     0
  0
CLASS
  1
SUN
  2
AcDbSun
  3
SCENEOE
 90
     1153
280
     0
281
     0
  0
CLASS
  1
ACDBPLACEHOLDER
  2
AcDbPlaceHolder
  3
ObjectDBX Classes
 90
        0
280
     0
281
     0
  0
CLASS
  1
LAYOUT
  2
AcDbLayout
  3
ObjectDBX Classes
 90
        0
280
     0
281
     0
  0
ENDSEC
  0
SECTION
  2
TABLES
  0
TABLE
  2
VPORT
  5
8
330
0
100
AcDbSymbolTable
 70
     1
  0
VPORT
  5
29
330
8
100
AcDbSymbolTableRecord
100
AcDbViewportTableRecord
  2
*Active
 70
     0
 10
0.0
 20
0.0
 11
1.0
 21
1.0
 12
139.7
 22
107.95
 13
0.0
 23
0.0
 14
10.0
 24
10.0
 15
10.0
 25
10.0
 16
0.0
 26
0.0
 36
1.0
 17
0.0
 27
0.0
 37
0.0
 40
215.9
 41
1.2941176471
 42
50.0
 43
0.0
 44
0.0
 50
0.0
 51
0.0
 71
     0
 72
  2000
 73
     1
 74
     3
 75
     0
 76
     0
 77
     0
 78
     0
281
     0
 65
     1
110
0.0
120
0.0
130
0.0
111
1.0
121
0.0
131
0.0
112
0.0
122
1.0
132
0.0
 79
     0
146
0.0
  0
ENDTAB
  0
TABLE
  2
LTYPE
  5
5
330
0
100
AcDbSymbolTable
 70
     6
  0
LTYPE
  5
14
330
5
100
AcDbSymbolTableRecord
100
AcDbLinetypeTableRecord
  2
ByBlock
 70
     0
  3

 72
    65
 73
     0
 40
0.0
  0
LTYPE
  5
15
330
5
100
AcDbSymbolTableRecord
100
AcDbLinetypeTableRecord
  2
ByLayer
 70
     0
  3

 72
    65
 73
     0
 40
0.0
  0
LTYPE
  5
16
330
5
100
AcDbSymbolTableRecord
100
AcDbLinetypeTableRecord
  2
Continuous
 70
     0
  3
Solid line
 72
    65
 73
     0
 40
0.0
  0
LTYPE
  5
6E
330
5
100
AcDbSymbolTableRecord
100
AcDbLinetypeTableRecord
  2
HIDDEN
 70
     0
  3
Hidden __ __ __ __ __ __ __ __ __ __ __ __ __ __
 72
    65
 73
     2
 40
1.905
 49
1.27
 74
     0
 49
-0.635
 74
     0
  0
LTYPE
  5
6F
330
5
100
AcDbSymbolTableRecord
100
AcDbLinetypeTableRecord
  2
PHANTOM
 70
     0
  3
Phantom ______  __  __  ______  __  __  ______
 72
    65
 73
     6
 40
12.7
 49
6.35
 74
     0
 49
-1.27
 74
     0
 49
1.27
 74
     0
 49
-1.27
 74
     0
 49
1.27
 74
     0
 49
-1.27
 74
     0
  0
LTYPE
  5
70
330
5
100
AcDbSymbolTableRecord
100
AcDbLinetypeTableRecord
  2
CENTER
 70
     0
  3
Center ____ _ ____ _ ____ _ ____ _ ____ _ ____
 72
    65
 73
     4
 40
10.16
 49
6.35
 74
     0
 49
-1.27
 74
     0
 49
1.27
 74
     0
 49
-1.27
 74
     0
  0
LTYPE
  5
71
330
5
100
AcDbSymbolTableRecord
100
AcDbLinetypeTableRecord
  2
CENTERX2
 70
     0
  3
Center (2x) ________  __  ________  __  _____
 72
    65
 73
     4
 40
20.32
 49
12.7
 74
     0
 49
-2.54
 74
     0
 49
2.54
 74
     0
 49
-2.54
 74
     0
  0
LTYPE
  5
72
330
5
100
AcDbSymbolTableRecord
100
AcDbLinetypeTableRecord
  2
DOT2
 70
     0
  3
Dot (.5x) ........................................
 72
    65
 73
     2
 40
0.635
 49
0.0
 74
     0
 49
-0.635
 74
     0
  0
ENDTAB
  0
TABLE
  2
LAYER
  5
2
330
0
100
AcDbSymbolTable
 70
    17
  0
LAYER
  5
10
330
2
100
AcDbSymbolTableRecord
100
AcDbLayerTableRecord
  2
0
 70
     0
 62
     7
  6
Continuous
370
    -3
390
F
  0
LAYER
  5
73
330
2
100
AcDbSymbolTableRecord
100
AcDbLayerTableRecord
  2
FORMAT
 70
     0
 62
     7
  6
Continuous
370
    -3
390
F
  0
LAYER
  5
74
330
2
100
AcDbSymbolTableRecord
100
AcDbLayerTableRecord
  2
YARDIMCI_GEOMETRI
 70
     0
 62
    -6
  6
Continuous
290
     0
370
    -3
390
F
  0
LAYER
  5
75
330
2
100
AcDbSymbolTableRecord
100
AcDbLayerTableRecord
  2
SAYFA_CERCEVESI
 70
     0
 62
     7
  6
Continuous
370
    25
390
F
  0
LAYER
  5
76
330
2
100
AcDbSymbolTableRecord
100
AcDbLayerTableRecord
  2
ANTET
 70
     0
 62
     7
  6
Continuous
370
    -3
390
F
  0
LAYER
  5
77
330
2
100
AcDbSymbolTableRecord
100
AcDbLayerTableRecord
  2
OLCU
 70
     0
 62
   150
  6
Continuous
370
    -3
390
F
  0
LAYER
  5
78
330
2
100
AcDbSymbolTableRecord
100
AcDbLayerTableRecord
  2
METIN
 70
     0
 62
    96
  6
Continuous
370
    -3
390
F
  0
LAYER
  5
79
330
2
100
AcDbSymbolTableRecord
100
AcDbLayerTableRecord
  2
BALON
 70
     0
 62
     5
  6
Continuous
370
    -3
390
F
  0
LAYER
  5
7A
330
2
100
AcDbSymbolTableRecord
100
AcDbLayerTableRecord
  2
VURGU
 70
     0
 62
     7
  6
Continuous
370
    -3
390
F
  0
LAYER
  5
7B
330
2
100
AcDbSymbolTableRecord
100
AcDbLayerTableRecord
  2
SILIK
 70
     0
 62
     7
  6
Continuous
370
    -3
390
F
  0
LAYER
  5
7C
330
2
100
AcDbSymbolTableRecord
100
AcDbLayerTableRecord
  2
MODEL
 70
     0
 62
     7
  6
Continuous
370
    -3
390
F
  0
LAYER
  5
7D
330
2
100
AcDbSymbolTableRecord
100
AcDbLayerTableRecord
  2
DETAYLANDıRMA
 70
     0
 62
   190
  6
Continuous
370
    -3
390
F
  0
LAYER
  5
7E
330
2
100
AcDbSymbolTableRecord
100
AcDbLayerTableRecord
  2
TOLERANS
 70
     0
 62
   230
  6
Continuous
370
    -3
390
F
  0
LAYER
  5
7F
330
2
100
AcDbSymbolTableRecord
100
AcDbLayerTableRecord
  2
MERKEZ_CIZGILERI
 70
     0
 62
    30
  6
Continuous
370
    -3
390
F
  0
LAYER
  5
80
330
2
100
AcDbSymbolTableRecord
100
AcDbLayerTableRecord
  2
KESIT-DETAY_CIZGILERI
 70
     0
 62
     7
  6
Continuous
370
    -3
390
F
  0
LAYER
  5
81
330
2
100
AcDbSymbolTableRecord
100
AcDbLayerTableRecord
  2
\U+041E\U+0421\U+0415\U+0412\U+042B\U+0415
 70
     0
 62
     7
  6
Continuous
370
    -3
390
F
  0
LAYER
  5
82
330
2
100
AcDbSymbolTableRecord
100
AcDbLayerTableRecord
  2
\U+0412\U+041E\U+0414\U+042F\U+041D\U+042B\U+0415_\U+0417\U+041D\U+0410\U+041A\U+0418
 70
     0
 62
    11
  6
Continuous
370
    -3
390
F
  0
ENDTAB
  0
TABLE
  2
STYLE
  5
3
330
0
100
AcDbSymbolTable
 70
     1
  0
STYLE
  5
11
330
3
100
AcDbSymbolTableRecord
100
AcDbTextStyleTableRecord
  2
Standard
 70
     0
 40
0.0
 41
1.0
 50
0.0
 71
     0
 42
3.5
  3
txt
  4

  0
ENDTAB
  0
TABLE
  2
VIEW
  5
6
330
0
100
AcDbSymbolTable
 70
     0
  0
ENDTAB
  0
TABLE
  2
UCS
  5
7
330
0
100
AcDbSymbolTable
 70
     0
  0
ENDTAB
  0
TABLE
  2
APPID
  5
9
330
0
100
AcDbSymbolTable
 70
     1
  0
APPID
  5
12
330
9
100
AcDbSymbolTableRecord
100
AcDbRegAppTableRecord
  2
ACAD
 70
     0
  0
ENDTAB
  0
TABLE
  2
DIMSTYLE
  5
A
330
0
100
AcDbSymbolTable
 70
     1
100
AcDbDimStyleTable
  0
DIMSTYLE
105
27
330
A
100
AcDbSymbolTableRecord
100
AcDbDimStyleTableRecord
  2
ISO-25
 70
     0
 41
2.5
 42
0.625
 43
3.75
 44
1.25
 73
     0
 74
     0
 77
     1
 78
     8
140
2.5
141
2.5
143
0.0393700787
147
0.625
171
     3
172
     1
178
     0
271
     2
272
     2
274
     3
278
    44
283
     0
284
     8
340
11
  0
ENDTAB
  0
TABLE
  2
BLOCK_RECORD
  5
1
330
0
100
AcDbSymbolTable
 70
     3
  0
BLOCK_RECORD
  5
1F
330
1
100
AcDbSymbolTableRecord
100
AcDbBlockTableRecord
  2
*Model_Space
340
22
  0
BLOCK_RECORD
  5
1B
330
1
100
AcDbSymbolTableRecord
100
AcDbBlockTableRecord
  2
*Paper_Space
340
1E
  0
BLOCK_RECORD
  5
23
330
1
100
AcDbSymbolTableRecord
100
AcDbBlockTableRecord
  2
*Paper_Space0
340
26
  0
BLOCK_RECORD
  5
88
330
1
100
AcDbSymbolTableRecord
100
AcDbBlockTableRecord
  2
SW_CENTERMARKSYMBOL_0
340
0
102
{BLKREFS
331
93
102
}
  0
BLOCK_RECORD
  5
9C
330
1
100
AcDbSymbolTableRecord
100
AcDbBlockTableRecord
  2
SW_CENTERMARKSYMBOL_1
340
0
102
{BLKREFS
331
A7
102
}
  0
ENDTAB
  0
ENDSEC
  0
SECTION
  2
BLOCKS
  0
BLOCK
  5
20
330
1F
100
AcDbEntity
  8
0
100
AcDbBlockBegin
  2
*Model_Space
 70
     0
 10
0.0
 20
0.0
 30
0.0
  3
*Model_Space
  1

  0
ENDBLK
  5
21
330
1F
100
AcDbEntity
  8
0
100
AcDbBlockEnd
  0
BLOCK
  5
1C
330
1B
100
AcDbEntity
 67
     1
  8
0
100
AcDbBlockBegin
  2
*Paper_Space
 70
     0
 10
0.0
 20
0.0
 30
0.0
  3
*Paper_Space
  1

  0
ENDBLK
  5
1D
330
1B
100
AcDbEntity
 67
     1
  8
0
100
AcDbBlockEnd
  0
BLOCK
  5
24
330
23
100
AcDbEntity
  8
0
100
AcDbBlockBegin
  2
*Paper_Space0
 70
     0
 10
0.0
 20
0.0
 30
0.0
  3
*Paper_Space0
  1

  0
ENDBLK
  5
25
330
23
100
AcDbEntity
  8
0
100
AcDbBlockEnd
  0
BLOCK
  5
89
330
88
100
AcDbEntity
  8
0
100
AcDbBlockBegin
  2
SW_CENTERMARKSYMBOL_0
 70
     0
 10
0.0
 20
0.0
 30
0.0
  3
SW_CENTERMARKSYMBOL_0
  1

  0
LINE
  5
8B
330
88
100
AcDbEntity
  8
FORMAT
 62
     0
100
AcDbLine
 10
0.0
 20
0.0
 30
0.0
 11
2.5
 21
0.0
 31
0.0
  0
LINE
  5
8C
330
88
100
AcDbEntity
  8
FORMAT
 62
     0
100
AcDbLine
 10
0.0
 20
0.0
 30
0.0
 11
0.0
 21
2.5
 31
0.0
  0
LINE
  5
8D
330
88
100
AcDbEntity
  8
FORMAT
 62
     0
100
AcDbLine
 10
0.0
 20
0.0
 30
0.0
 11
-2.5
 21
0.0
 31
0.0
  0
LINE
  5
8E
330
88
100
AcDbEntity
  8
FORMAT
 62
     0
100
AcDbLine
 10
0.0
 20
0.0
 30
0.0
 11
0.0
 21
-2.5
 31
0.0
  0
LINE
  5
8F
330
88
100
AcDbEntity
  8
FORMAT
 62
     0
100
AcDbLine
 10
5.0
 20
0.0
 30
0.0
 11
142.5
 21
0.0
 31
0.0
  0
LINE
  5
90
330
88
100
AcDbEntity
  8
FORMAT
 62
     0
100
AcDbLine
 10
0.0
 20
5.0
 30
0.0
 11
0.0
 21
142.5
 31
0.0
  0
LINE
  5
91
330
88
100
AcDbEntity
  8
FORMAT
 62
     0
100
AcDbLine
 10
-5.0
 20
0.0
 30
0.0
 11
-142.5
 21
0.0
 31
0.0
  0
LINE
  5
92
330
88
100
AcDbEntity
  8
FORMAT
 62
     0
100
AcDbLine
 10
0.0
 20
-5.0
 30
0.0
 11
0.0
 21
-142.5
 31
0.0
  0
ENDBLK
  5
8A
330
88
100
AcDbEntity
  8
0
100
AcDbBlockEnd
  0
BLOCK
  5
9D
330
9C
100
AcDbEntity
  8
0
100
AcDbBlockBegin
  2
SW_CENTERMARKSYMBOL_1
 70
     0
 10
0.0
 20
0.0
 30
0.0
  3
SW_CENTERMARKSYMBOL_1
  1

  0
LINE
  5
9F
330
9C
100
AcDbEntity
  8
FORMAT
 62
     0
100
AcDbLine
 10
0.0
 20
0.0
 30
0.0
 11
0.0
 21
2.5
 31
0.0
  0
LINE
  5
A0
330
9C
100
AcDbEntity
  8
FORMAT
 62
     0
100
AcDbLine
 10
0.0
 20
0.0
 30
0.0
 11
-2.5
 21
0.0
 31
0.0
  0
LINE
  5
A1
330
9C
100
AcDbEntity
  8
FORMAT
 62
     0
100
AcDbLine
 10
0.0
 20
0.0
 30
0.0
 11
0.0
 21
-2.5
 31
0.0
  0
LINE
  5
A2
330
9C
100
AcDbEntity
  8
FORMAT
 62
     0
100
AcDbLine
 10
0.0
 20
0.0
 30
0.0
 11
2.5
 21
0.0
 31
0.0
  0
LINE
  5
A3
330
9C
100
AcDbEntity
  8
FORMAT
 62
     0
100
AcDbLine
 10
0.0
 20
5.0
 30
0.0
 11
0.0
 21
82.5
 31
0.0
  0
LINE
  5
A4
330
9C
100
AcDbEntity
  8
FORMAT
 62
     0
100
AcDbLine
 10
-5.0
 20
0.0
 30
0.0
 11
-82.5
 21
0.0
 31
0.0
  0
LINE
  5
A5
330
9C
100
AcDbEntity
  8
FORMAT
 62
     0
100
AcDbLine
 10
0.0
 20
-5.0
 30
0.0
 11
0.0
 21
-82.5
 31
0.0
  0
LINE
  5
A6
330
9C
100
AcDbEntity
  8
FORMAT
 62
     0
100
AcDbLine
 10
5.0
 20
0.0
 30
0.0
 11
82.5
 21
0.0
 31
0.0
  0
ENDBLK
  5
9E
330
9C
100
AcDbEntity
  8
0
100
AcDbBlockEnd
  0
ENDSEC
  0
SECTION
  2
ENTITIES
  0
LINE
  5
83
330
1F
100
AcDbEntity
  8
0
  6
Continuous
 62
     7
370
    25
100
AcDbLine
 10
60.2388293534
 20
38.2781427789
 30
0.0
 11
60.2388293534
 21
-148.8167244506
 31
0.0
  0
LINE
  5
84
330
1F
100
AcDbEntity
  8
0
  6
Continuous
 62
     7
370
    25
100
AcDbLine
 10
220.2388257771
 20
-148.8167244506
 30
0.0
 11
220.2388257771
 21
38.2386174488
 31
0.0
  0
CIRCLE
  5
85
330
1F
100
AcDbEntity
  8
0
  6
Continuous
 62
     7
370
    25
100
AcDbCircle
 10
140.2388275653
 20
153.1832617212
 30
0.0
 40
123.4
  0
CIRCLE
  5
86
330
1F
100
AcDbEntity
  8
0
  6
Continuous
 62
     7
370
    25
100
AcDbCircle
 10
140.2388275653
 20
153.1832617212
 30
0.0
 40
140.0
  0
LINE
  5
87
330
1F
100
AcDbEntity
  8
0
  6
Continuous
 62
     7
370
    25
100
AcDbLine
 10
220.2388257771
 20
-148.8167244506
 30
0.0
 11
60.2388293534
 21
-148.8167244506
 31
0.0
  0
INSERT
  5
93
330
1F
100
AcDbEntity
  8
FORMAT
 62
     7
100
AcDbBlockReference
  2
SW_CENTERMARKSYMBOL_0
 10
140.2388275653
 20
153.1832617212
 30
0.0
  0
LINE
  5
94
330
1F
100
AcDbEntity
  8
0
  6
Continuous
 62
     7
370
    25
100
AcDbLine
 10
280.2388281613
 20
466.7574448804
 30
0.0
 11
280.2388281613
 21
1156.7574424963
 31
0.0
  0
LINE
  5
95
330
1F
100
AcDbEntity
  8
0
  6
Continuous
 62
     7
370
    25
100
AcDbLine
 10
0.2388269692
 20
1156.7574424963
 30
0.0
 11
0.2388269692
 21
466.7574448804
 31
0.0
  0
CIRCLE
  5
96
330
1F
100
AcDbEntity
  8
0
  6
Continuous
 62
     7
370
    25
100
AcDbCircle
 10
140.2388275653
 20
811.7574436884
 30
0.0
 40
70.5
  0
CIRCLE
  5
97
330
1F
100
AcDbEntity
  8
0
  6
Continuous
 62
     7
370
    25
100
AcDbCircle
 10
140.2388275653
 20
811.7574436884
 30
0.0
 40
80.00000000000011
  0
LINE
  5
98
330
1F
100
AcDbEntity
  8
0
  6
Continuous
 62
     7
370
    25
100
AcDbLine
 10
140.2388275653
 20
1156.7574424963
 30
0.0
 11
280.2388281613
 21
1156.7574424963
 31
0.0
  0
LINE
  5
99
330
1F
100
AcDbEntity
  8
0
  6
Continuous
 62
     7
370
    25
100
AcDbLine
 10
0.2388269692
 20
1156.7574424963
 30
0.0
 11
140.2388275653
 21
1156.7574424963
 31
0.0
  0
LINE
  5
9A
330
1F
100
AcDbEntity
  8
0
  6
Continuous
 62
     7
370
    25
100
AcDbLine
 10
140.2388275653
 20
466.7574448804
 30
0.0
 11
280.2388281613
 21
466.7574448804
 31
0.0
  0
LINE
  5
9B
330
1F
100
AcDbEntity
  8
0
  6
Continuous
 62
     7
370
    25
100
AcDbLine
 10
0.2388269692
 20
466.7574448804
 30
0.0
 11
140.2388275653
 21
466.7574448804
 31
0.0
  0
INSERT
  5
A7
330
1F
100
AcDbEntity
  8
FORMAT
100
AcDbBlockReference
  2
SW_CENTERMARKSYMBOL_1
 10
140.2388275653
 20
811.7574436884
 30
0.0
  0
LINE
  5
A8
330
1F
100
AcDbEntity
  8
0
  6
Continuous
 62
     7
370
    25
100
AcDbLine
 10
-267.6532191345
 20
293.1832623172
 30
0.0
 11
-957.6532167504
 21
293.1832623172
 31
0.0
  0
LINE
  5
A9
330
1F
100
AcDbEntity
  8
0
  6
Continuous
 62
     7
370
    25
100
AcDbLine
 10
-532.6545459339
 20
13.1832611251
 30
0.0
 11
-267.6532191345
 21
13.1832611251
 31
0.0
  0
LINE
  5
AA
330
1F
100
AcDbEntity
  8
0
  6
Continuous
 62
     7
370
    25
100
AcDbLine
 10
-957.6532167504
 20
13.1832611251
 30
0.0
 11
-692.6532161543
 21
13.1832611251
 31
0.0
  0
LINE
  5
AB
330
1F
100
AcDbEntity
  8
0
  6
Continuous
 62
     7
370
    25
100
AcDbLine
 10
-692.6532161543
 20
13.1832611251
 30
0.0
 11
-692.6532161543
 21
-148.8167244506
 31
0.0
  0
LINE
  5
AC
330
1F
100
AcDbEntity
  8
0
  6
Continuous
 62
     7
370
    25
100
AcDbLine
 10
-532.6532197306
 20
-148.8167244506
 30
0.0
 11
-532.6532197306
 21
13.1840210843
 31
0.0
  0
LWPOLYLINE
  5
AD
330
1F
100
AcDbEntity
  8
0
  6
Continuous
 62
     7
370
    25
100
AcDbPolyline
 90
       43
 70
   128
 43
0.0
 10
-532.6545459339
 20
13.1840210843
 10
-532.8710300038
 20
13.3077305246
 10
-533.5250941226
 20
13.6796486068
 10
-534.648120136
 20
14.3136632133
 10
-536.211788387
 20
15.1858281779
 10
-538.1208953569
 20
16.2341993737
 10
-540.4053849289
 20
17.4638878989
 10
-543.1144607374
 20
18.886486857
 10
-546.1769697377
 20
20.4463404107
 10
-549.8566922853
 20
22.2504985023
 10
-553.9024208793
 20
24.1419624973
 10
-558.4010628173
 20
26.1270355869
 10
-563.2410717318
 20
28.1170409608
 10
-568.8401569733
 20
30.2215021539
 10
-574.7927722642
 20
32.21461442
 10
-581.2804323742
 20
34.0851795364
 10
-588.0804729769
 20
35.693603425
 10
-593.4497785876
 20
36.6978299308
 10
-598.9472304592
 20
37.4773692775
 10
-604.7005557576
 20
38.0164783883
 10
-610.5147536965
 20
38.2721078086
 10
-616.190394585
 20
38.2369783211
 10
-621.839993366
 20
37.9253056336
 10
-627.5902089784
 20
37.3245951224
 10
-633.2304139743
 20
36.4638518977
 10
-638.4974491904
 20
35.4208898235
 10
-643.6078452626
 20
34.1950756002
 10
-648.6468983004
 20
32.785731225
 10
-653.4848024258
 20
31.2520590115
 10
-658.6886902461
 20
29.4122424412
 10
-663.6002992401
 20
27.5026958871
 10
-668.3038917491
 20
25.5236130643
 10
-672.6651226291
 20
23.5629331756
 10
-677.022039623
 20
21.4892279792
 10
-680.9145880053
 20
19.543389647
 10
-684.411063523
 20
17.7242409873
 10
-687.3393801162
 20
16.1503356385
 10
-689.2378774593
 20
15.1065241981
 10
-690.7331270287
 20
14.2715227294
 10
-691.8318641493
 20
13.6510979819
 10
-692.4739477346
 20
13.2856172013
 10
-692.6532161543
 20
13.1832611251
 10
-692.6532161543
 20
13.1832611251
  0
LINE
  5
AE
330
1F
100
AcDbEntity
  8
0
  6
Continuous
 62
     7
370
    25
100
AcDbLine
 10
-957.6532167504
 20
13.1832611251
 30
0.0
 11
-957.6532167504
 21
293.1832623172
 31
0.0
  0
LINE
  5
AF
330
1F
100
AcDbEntity
  8
0
  6
Continuous
 62
     7
370
    25
100
AcDbLine
 10
-267.6532191345
 20
13.1832611251
 30
0.0
 11
-267.6532191345
 21
293.1832623172
 31
0.0
  0
LINE
  5
B0
330
1F
100
AcDbEntity
  8
0
  6
Continuous
 62
     7
370
    25
100
AcDbLine
 10
-532.6532197306
 20
-148.8167244506
 30
0.0
 11
-692.6532161543
 21
-148.8167244506
 31
0.0
  0
LINE
  5
B1
330
1F
100
AcDbEntity
  8
0
  6
Continuous
 62
     7
370
    25
100
AcDbLine
 10
1016.8412673317
 20
13.1832611251
 30
0.0
 11
1281.8412679277
 21
13.1832611251
 31
0.0
  0
LINE
  5
B2
330
1F
100
AcDbEntity
  8
0
  6
Continuous
 62
     7
370
    25
100
AcDbLine
 10
591.8412703119
 20
13.1832611251
 30
0.0
 11
856.8425896607
 21
13.1832611251
 31
0.0
  0
LINE
  5
B3
330
1F
100
AcDbEntity
  8
0
  6
Continuous
 62
     7
370
    25
100
AcDbLine
 10
1281.8412679277
 20
293.1832623172
 30
0.0
 11
591.8412703119
 21
293.1832623172
 31
0.0
  0
LINE
  5
B4
330
1F
100
AcDbEntity
  8
0
  6
Continuous
 62
     7
370
    25
100
AcDbLine
 10
856.8412709079
 20
13.1840210843
 30
0.0
 11
856.8412709079
 21
-148.8167244506
 31
0.0
  0
LINE
  5
B5
330
1F
100
AcDbEntity
  8
0
  6
Continuous
 62
     7
370
    25
100
AcDbLine
 10
1016.8412673317
 20
-148.8167244506
 30
0.0
 11
1016.8412673317
 21
13.1832611251
 31
0.0
  0
SPLINE
  5
B6
330
1F
100
AcDbEntity
  8
0
  6
Continuous
 62
     7
370
    25
100
AcDbSpline
210
0.0
220
0.0
230
1.0
 70
     8
 71
     3
 72
    48
 73
    44
 74
     0
 42
0.000000001
 43
0.00000001
 40
0.0
 40
0.0
 40
0.0
 40
0.0
 40
0.023625488545935
 40
0.0474330006730246
 40
0.0718038925384185
 40
0.0963628461244101
 40
0.1199852420420761
 40
0.1437606255781436
 40
0.1679894692049758
 40
0.192363333618571
 40
0.2177324714902646
 40
0.2432503944258579
 40
0.2692198222049064
 40
0.2953412288279594
 40
0.3233256075639657
 40
0.3515123384501437
 40
0.3803857899547305
 40
0.4095261489696478
 40
0.431344069684903
 40
0.4533018536613785
 40
0.4757244504233776
 40
0.4983180158932379
 40
0.5201392236948202
 40
0.5421203052773533
 40
0.5645881443590496
 40
0.5872147327125383
 40
0.6090602538048302
 40
0.6310294795159307
 40
0.6533561846362612
 40
0.675794670730178
 40
0.7011366660098676
 40
0.7266240697038159
 40
0.7525560547787902
 40
0.7786399395023199
 40
0.8067180803279561
 40
0.8350047955659773
 40
0.8639934045544468
 40
0.8932478601661942
 40
0.919297193198588
 40
0.9455685261971863
 40
0.9725791787801202
 40
0.9998602476045316
 40
1.0
 40
1.0
 40
1.0
 40
1.0
 10
1016.841267331652
 20
13.18326112510472
 30
0.0
 10
1016.796704149604
 20
13.20875204684886
 30
0.0
 10
1016.707234446577
 20
13.25993028622778
 30
0.0
 10
1015.97866419249
 20
13.67510207093713
 30
0.0
 10
1014.803206046625
 20
14.33942172714005
 30
0.0
 10
1013.159014429995
 20
15.2571869351336
 30
0.0
 10
1011.098516878941
 20
16.3879064193408
 30
0.0
 10
1008.643951617324
 20
17.70656002498978
 30
0.0
 10
1005.773567828138
 20
19.20810561664251
 30
0.0
 10
1002.459266430749
 20
20.88585058349758
 30
0.0
 10
998.7136344535555
 20
22.70681672008067
 30
0.0
 10
994.5214670270801
 20
24.64576469869413
 30
0.0
 10
989.9343188976086
 20
26.64244547872001
 30
0.0
 10
984.8524756376577
 20
28.69602245736347
 30
0.0
 10
979.277495008947
 20
30.74680598955219
 30
0.0
 10
973.161997662577
 20
32.73785966832401
 30
0.0
 10
966.6266768758171
 20
34.55395007149445
 30
0.0
 10
960.290468139694
 20
35.97631947910486
 30
0.0
 10
954.3157024341059
 20
37.01227409901896
 30
0.0
 10
948.7716191783592
 20
37.71941231996677
 30
0.0
 10
943.0747817787385
 20
38.17123321270194
 30
0.0
 10
937.3415871302901
 20
38.33847005838165
 30
0.0
 10
931.643195938883
 20
38.22029596225847
 30
0.0
 10
925.9939675207929
 20
37.826822291399
 30
0.0
 10
920.3561411969663
 20
37.15999784136169
 30
0.0
 10
914.8479979457147
 20
36.2462301835283
 30
0.0
 10
909.5275296465092
 20
35.1258002084538
 30
0.0
 10
904.3981040742284
 20
33.83231447405659
 30
0.0
 10
899.4122242530296
 20
32.37904818801171
 30
0.0
 10
894.3924053770305
 20
30.73123462765434
 30
0.0
 10
889.4045996956147
 20
28.91335635552841
 30
0.0
 10
884.4852302631282
 20
26.94996030302867
 30
0.0
 10
879.8486423942282
 20
24.95390633375467
 30
0.0
 10
875.4226518415385
 20
22.92407155627592
 30
0.0
 10
871.2819175029122
 20
20.9184315128937
 30
0.0
 10
867.4741138650795
 20
18.98680372349006
 30
0.0
 10
864.1427509605061
 20
17.23168773775231
 30
0.0
 10
861.4578274163102
 20
15.77361623373484
 30
0.0
 10
859.4152678413124
 20
14.64044557379408
 30
0.0
 10
857.9454652639929
 20
13.8122559910487
 30
0.0
 10
857.0885634541582
 20
13.325040000928
 30
0.0
 10
856.7559557288549
 20
13.13381410590352
 30
0.0
 10
856.8421503628908
 20
13.18376649798787
 30
0.0
 10
856.8425896606961
 20
13.18402108432561
 30
0.0
  0
LINE
  5
B7
330
1F
100
AcDbEntity
  8
0
  6
Continuous
 62
     7
370
    25
100
AcDbLine
 10
1281.8412679277
 20
293.1832623172
 30
0.0
 11
1281.8412679277
 21
13.1832611251
 31
0.0
  0
LINE
  5
B8
330
1F
100
AcDbEntity
  8
0
  6
Continuous
 62
     7
370
    25
100
AcDbLine
 10
591.8412703119
 20
293.1832623172
 30
0.0
 11
591.8412703119
 21
13.1832611251
 31
0.0
  0
LINE
  5
B9
330
1F
100
AcDbEntity
  8
0
  6
Continuous
 62
     7
370
    25
100
AcDbLine
 10
1016.8412673317
 20
-148.8167244506
 30
0.0
 11
856.8412709079
 21
-148.8167244506
 31
0.0
  0
LINE
  5
BA
330
1F
100
AcDbEntity
  8
0
  6
Continuous
 62
     7
370
    25
100
AcDbLine
 10
0.2388269692
 20
-322.5443620988
 30
0.0
 11
0.2388269692
 21
-1012.5443597147
 31
0.0
  0
LINE
  5
BB
330
1F
100
AcDbEntity
  8
0
  6
Continuous
 62
     7
370
    25
100
AcDbLine
 10
280.2388281613
 20
-1012.5443597147
 30
0.0
 11
280.2388281613
 21
-322.5443620988
 31
0.0
  0
LINE
  5
BC
330
1F
100
AcDbEntity
  8
0
  6
Continuous
 62
     7
370
    25
100
AcDbLine
 10
280.2388281613
 20
-1012.5443597147
 30
0.0
 11
0.2388269692
 21
-1012.5443597147
 31
0.0
  0
LINE
  5
BD
330
1F
100
AcDbEntity
  8
0
  6
Continuous
 62
     7
370
    25
100
AcDbLine
 10
280.2388281613
 20
-322.5443620988
 30
0.0
 11
0.2388269692
 21
-322.5443620988
 31
0.0
  0
LINE
  5
BE
330
1F
100
AcDbEntity
  8
0
  6
Continuous
 62
     7
370
    25
100
AcDbLine
 10
1201.0596981445
 20
-618.1703933015
 30
0.0
 11
713.1560208116
 21
-336.5095956959
 31
0.0
  0
LINE
  5
BF
330
1F
100
AcDbEntity
  8
0
  6
Continuous
 62
     7
370
    25
100
AcDbLine
 10
573.1674024353
 20
-579.0032760911
 30
0.0
 11
807.1135522649
 21
-714.0575136775
 31
0.0
  0
LINE
  5
C0
330
1F
100
AcDbEntity
  8
0
  6
Continuous
 62
     7
370
    25
100
AcDbLine
 10
967.1135529247
 20
-806.423547992
 30
0.0
 11
1061.0710797681
 21
-860.6640736967
 31
0.0
  0
LINE
  5
C1
330
1F
100
AcDbEntity
  8
0
  6
Continuous
 62
     7
370
    25
100
AcDbLine
 10
807.1135529234
 20
-703.1534754188
 30
0.0
 11
807.1135529234
 21
-845.1821485945
 31
0.0
  0
LINE
  5
C2
330
1F
100
AcDbEntity
  8
0
  6
Continuous
 62
     7
370
    25
100
AcDbLine
 10
967.1135476563
 20
-845.1821485945
 30
0.0
 11
967.1135476563
 21
-703.1519909953
 31
0.0
  0
SPLINE
  5
C3
330
1F
100
AcDbEntity
  8
0
  6
Continuous
 62
     7
370
    25
100
AcDbSpline
210
0.0
220
0.0
230
1.0
 70
     8
 71
     3
 72
    18
 73
    14
 74
     0
 42
0.000000001
 43
0.00000001
 40
0.0
 40
0.0
 40
0.0
 40
0.0
 40
0.0946840486052756
 40
0.1912240095809343
 40
0.2877680621717267
 40
0.3861931656572939
 40
0.4808648199129338
 40
0.5770547929697674
 40
0.6732512642313776
 40
0.7709345844449745
 40
0.8726066696019465
 40
0.9757785809826529
 40
1.0
 40
1.0
 40
1.0
 40
1.0
 10
830.5450090593584
 20
-680.2462251040369
 30
0.0
 10
829.1430631722269
 20
-681.0711175183144
 30
0.0
 10
826.3116917036239
 20
-682.737071153109
 30
0.0
 10
822.5070274834596
 20
-685.1905142690172
 30
0.0
 10
819.0279879861323
 20
-687.6169575877944
 30
0.0
 10
816.0020640160562
 20
-689.9544633277046
 30
0.0
 10
813.4103199786553
 20
-692.2119978847534
 30
0.0
 10
811.2710634728954
 20
-694.3747676989433
 30
0.0
 10
809.5540836237498
 20
-696.4852008988261
 30
0.0
 10
808.2511042180229
 20
-698.5649257831798
 30
0.0
 10
807.4349890811084
 20
-700.6285996166275
 30
0.0
 10
807.073178912848
 20
-702.1584876347697
 30
0.0
 10
807.1449468004612
 20
-702.9940623707336
 30
0.0
 10
807.158592099414
 20
-703.1529310158727
 30
0.0
  0
SPLINE
  5
C4
330
1F
100
AcDbEntity
  8
0
  6
Continuous
 62
     7
370
    25
100
AcDbSpline
210
0.0
220
0.0
230
1.0
 70
     8
 71
     3
 72
    38
 73
    34
 74
     0
 42
0.000000001
 43
0.00000001
 40
0.0
 40
0.0
 40
0.0
 40
0.0
 40
0.0173198836558095
 40
0.0519153892564438
 40
0.0890981062848402
 40
0.1265442666111303
 40
0.1648778086025791
 40
0.2035536450393313
 40
0.2328300283717658
 40
0.2626027352234078
 40
0.292373236535079
 40
0.3226844683227201
 40
0.351965960508651
 40
0.3818006713507527
 40
0.4116370522382822
 40
0.442028884429929
 40
0.4709551009831986
 40
0.5002852803399124
 40
0.5296176182981849
 40
0.5593378488806798
 40
0.5927251069600921
 40
0.6265892080243205
 40
0.6604538061575084
 40
0.6948005789656263
 40
0.7321531197381717
 40
0.7697778492240276
 40
0.8083145895912809
 40
0.8471955326277983
 40
0.8779254277385876
 40
0.9091835906553172
 40
0.9404401365249582
 40
0.9722632641590846
 40
1.0
 40
1.0
 40
1.0
 40
1.0
 10
967.05169715614
 20
-703.1520122847515
 30
0.0
 10
967.0631925609167
 20
-702.2663953255638
 30
0.0
 10
967.0976493982434
 20
-699.611807680403
 30
0.0
 10
966.5958961254094
 20
-695.0530081981444
 30
0.0
 10
965.5299679496039
 20
-689.5347691944271
 30
0.0
 10
963.8021084979692
 20
-683.9694911607401
 30
0.0
 10
961.4446085424506
 20
-678.5562496967821
 30
0.0
 10
958.6726334064793
 20
-673.823529477319
 30
0.0
 10
955.6601137601682
 20
-669.7827083767461
 30
0.0
 10
952.5608817734484
 20
-666.3983903464392
 30
0.0
 10
949.0738842318079
 20
-663.3073371924394
 30
0.0
 10
945.2702477232765
 20
-660.6073643174876
 30
0.0
 10
941.1598295174339
 20
-658.3028069359782
 30
0.0
 10
936.8005408990243
 20
-656.4214766924315
 30
0.0
 10
932.1477624956437
 20
-654.9365221175017
 30
0.0
 10
927.3367063183756
 20
-653.8844285990984
 30
0.0
 10
922.3873329101526
 20
-653.2288083973937
 30
0.0
 10
917.3640393082565
 20
-652.9402142112879
 30
0.0
 10
912.1864128303132
 20
-652.9869828671373
 30
0.0
 10
906.6798228500347
 20
-653.3650537687487
 30
0.0
 10
900.8240212449223
 20
-654.0975122456834
 30
0.0
 10
894.6561719426478
 20
-655.1959474908983
 30
0.0
 10
888.39179702542
 20
-656.6070573470366
 30
0.0
 10
881.8988971915744
 20
-658.3449380794718
 30
0.0
 10
875.1878811983479
 20
-660.4101561267047
 30
0.0
 10
868.2727948144786
 20
-662.8004099763884
 30
0.0
 10
861.3645385703574
 20
-665.4335613930009
 30
0.0
 10
855.0163080128759
 20
-668.0694386297521
 30
0.0
 10
849.2693783814209
 20
-670.6265761187531
 30
0.0
 10
844.1320840163097
 20
-673.0494415926596
 30
0.0
 10
839.1578227143293
 20
-675.5365529852708
 30
0.0
 10
834.5972981229833
 20
-677.9452855948603
 30
0.0
 10
831.8325422758815
 20
-679.5151479274682
 30
0.0
 10
830.5450090593584
 20
-680.2462251040369
 30
0.0
  0
LWPOLYLINE
  5
C5
330
1F
100
AcDbEntity
  8
0
  6
Continuous
 62
     7
370
    25
100
AcDbPolyline
 90
      126
 70
   128
 43
0.0
 10
643.1617116235
 20
-572.0721500442
 10
648.1356452794
 20
-569.0563686538
 10
653.0970145647
 20
-565.7594486571
 10
658.0332863895
 20
-562.189683817
 10
662.9319908843
 20
-558.3561222819
 10
667.7807553149
 20
-554.2684374997
 10
672.5673281193
 20
-549.936950844
 10
677.2796197373
 20
-545.3726202111
 10
681.9057289527
 20
-540.5869518089
 10
686.4339652833
 20
-535.5920480676
 10
690.8528937623
 20
-530.4005270357
 10
695.1513454748
 20
-525.0254980452
 10
699.3184728757
 20
-519.4805419456
 10
703.3437392528
 20
-513.7796685165
 10
707.2169819474
 20
-507.9372738878
 10
710.9284176222
 20
-501.968119247
 10
714.4686686034
 20
-495.8872791306
 10
717.8287892225
 20
-489.7101201334
 10
721.0002974261
 20
-483.4522400742
 10
723.9751747763
 20
-477.1294497451
 10
726.7459138658
 20
-470.7577272879
 10
729.3055077809
 20
-464.3531573562
 10
731.6475027855
 20
-457.9319250366
 10
733.7659614424
 20
-451.5102519664
 10
735.6555627118
 20
-445.1043507151
 10
737.3115018531
 20
-438.7304156496
 10
738.7296168649
 20
-432.404540816
 10
739.9063252652
 20
-426.1427032035
 10
740.8386346277
 20
-419.9607323269
 10
741.524216339
 20
-413.8742281033
 10
741.9613213049
 20
-407.8985783354
 10
742.1488431706
 20
-402.0488769669
 10
742.0863183209
 20
-396.339895946
 10
741.7739048063
 20
-390.7860559454
 10
741.2123928803
 20
-385.4013868191
 10
740.4031839256
 20
-380.1994998436
 10
739.3483431378
 20
-375.1935246045
 10
738.0505257683
 20
-370.396107849
 10
736.5130087346
 20
-365.8193762256
 10
734.7396800835
 20
-361.4748830516
 10
732.7350179177
 20
-357.3736037475
 10
730.5040851272
 20
-353.5258993348
 10
728.0525188532
 20
-349.9414921001
 10
725.3865094139
 20
-346.6294382163
 10
722.5127950368
 20
-343.598094282
 10
719.4386302482
 20
-340.8551294857
 10
716.1717858733
 20
-338.4074647688
 10
712.7205121576
 20
-336.2612880316
 10
709.0935229622
 20
-334.4220145876
 10
705.2999852265
 20
-332.8942993296
 10
701.3494820902
 20
-331.681997183
 10
697.2519918198
 20
-330.7881691867
 10
693.0178667348
 20
-330.215070324
 10
688.6577963298
 20
-329.9641525613
 10
684.1828020056
 20
-330.0360496377
 10
679.6041843859
 20
-330.4305831445
 10
674.9335075124
 20
-331.1467473138
 10
670.1825751369
 20
-332.1827409562
 10
665.3633833059
 20
-333.5359461632
 10
660.4881111418
 20
-335.2029457967
 10
655.5690681584
 20
-337.179517401
 10
650.6186850419
 20
-339.4606871943
 10
645.649464095
 20
-342.0406735046
 10
640.6739591519
 20
-344.9129713697
 10
635.7047382051
 20
-348.0703254419
 10
630.7543550885
 20
-351.5047463352
 10
625.8353121051
 20
-355.20758087
 10
620.960039941
 20
-359.1694506633
 10
616.14084811
 20
-363.3803659087
 10
611.3899157345
 20
-367.829682029
 10
606.719238861
 20
-372.5061665921
 10
602.1406212414
 20
-377.3979924656
 10
597.6656269172
 20
-382.4928138592
 10
593.3055565121
 20
-387.7777617592
 10
589.0714314272
 20
-393.2394773878
 10
584.9739411567
 20
-398.8641669512
 10
581.0234380204
 20
-404.6376229321
 10
577.2299002847
 20
-410.5452636303
 10
573.6029110893
 20
-416.5721696632
 10
570.1516373736
 20
-422.7031022146
 10
566.8847929987
 20
-428.9225851614
 10
563.8106282101
 20
-435.2149050724
 10
560.936913833
 20
-441.5641690026
 10
558.2709043937
 20
-447.9543318656
 10
555.8193381197
 20
-454.369257271
 10
553.5884053293
 20
-460.7927418565
 10
551.5837431634
 20
-467.2085548311
 10
549.8104145123
 20
-473.6004896847
 10
548.2728974786
 20
-479.9524006893
 10
546.9750801091
 20
-486.2482454848
 10
545.9202393213
 20
-492.4721139738
 10
545.1110303666
 20
-498.6082937214
 10
544.5495184406
 20
-504.6412707179
 10
544.237104926
 20
-510.5558156846
 10
544.1745800763
 20
-516.3369863604
 10
544.362101942
 20
-521.9701795913
 10
544.7992069079
 20
-527.4411587078
 10
545.4847886192
 20
-532.7361071362
 10
546.4170979817
 20
-537.8416565352
 10
547.593806382
 20
-542.7448955473
 10
549.0119213938
 20
-547.4334496396
 10
550.6678605351
 20
-551.8954780686
 10
552.5574618045
 20
-556.1196921327
 10
554.6759204614
 20
-560.0954449007
 10
557.017915466
 20
-563.8126673444
 10
559.5775093811
 20
-567.2619930458
 10
562.3482484706
 20
-570.4346882435
 10
565.3231258208
 20
-573.3227582941
 10
568.4946340244
 20
-575.9188929239
 10
571.8547546435
 20
-578.2165392322
 10
575.3950056247
 20
-580.2098925702
 10
579.1064412995
 20
-581.8939147925
 10
582.9796839941
 20
-583.2643585942
 10
587.0049503712
 20
-584.3177583885
 10
591.1720777721
 20
-585.0514516016
 10
595.4705294846
 20
-585.4635938828
 10
599.8894579636
 20
-585.5531286918
 10
604.4176942942
 20
-585.3198420509
 10
609.0438035096
 20
-584.7643184435
 10
613.7560951276
 20
-583.8879529827
 10
618.542667932
 20
-582.6929803125
 10
623.3914323626
 20
-581.1824008456
 10
628.2901368574
 20
-579.3600385607
 10
633.2264086822
 20
-577.2305052647
 10
638.1877779675
 20
-574.7991502145
 10
643.1617116235
 20
-572.0721500442
  0
LWPOLYLINE
  5
C6
330
1F
100
AcDbEntity
  8
0
  6
Continuous
 62
     7
370
    25
100
AcDbPolyline
 90
       48
 70
   128
 43
0.0
 10
1131.0653889563
 20
-853.7329476498
 10
1136.0393226123
 20
-850.7171662594
 10
1141.0006918976
 20
-847.4202462627
 10
1145.9369637224
 20
-843.8504814226
 10
1150.8356682172
 20
-840.0169198875
 10
1155.6844326478
 20
-835.9292351053
 10
1160.4710054521
 20
-831.5977484496
 10
1165.1832970702
 20
-827.0334178167
 10
1169.8094062855
 20
-822.2477494145
 10
1174.3376426161
 20
-817.2528456732
 10
1178.7565710951
 20
-812.0613246413
 10
1183.0550228076
 20
-806.6862956508
 10
1187.2221502085
 20
-801.1413395512
 10
1191.2474165857
 20
-795.4404661221
 10
1195.1206592803
 20
-789.5980714934
 10
1198.8320949551
 20
-783.6289168526
 10
1202.3723459363
 20
-777.5480767362
 10
1205.7324665553
 20
-771.370917739
 10
1208.9039747589
 20
-765.1130376798
 10
1211.8788521091
 20
-758.7902473507
 10
1214.6495911986
 20
-752.4185248935
 10
1217.2091851137
 20
-746.0139549618
 10
1219.5511801184
 20
-739.5927226422
 10
1221.6696387752
 20
-733.171049572
 10
1223.5592400446
 20
-726.7651483207
 10
1225.2151791859
 20
-720.3912132552
 10
1226.6332941978
 20
-714.0653384216
 10
1227.8100025981
 20
-707.8035008091
 10
1228.7423119605
 20
-701.6215299325
 10
1229.4278936718
 20
-695.5350257089
 10
1229.8649986377
 20
-689.559375941
 10
1230.0525205035
 20
-683.7096745725
 10
1229.9899956537
 20
-678.0006935516
 10
1229.6775821391
 20
-672.446853551
 10
1229.1160702131
 20
-667.0621844247
 10
1228.3068612584
 20
-661.8602974492
 10
1227.2520204706
 20
-656.8543222101
 10
1225.9542031011
 20
-652.0569054546
 10
1224.4166860675
 20
-647.4801738312
 10
1222.6433574164
 20
-643.1356806572
 10
1220.6386952505
 20
-639.0344013531
 10
1218.4077624601
 20
-635.1866969404
 10
1215.956196186
 20
-631.6022897057
 10
1213.2901867467
 20
-628.2902358219
 10
1210.4164723697
 20
-625.2588918876
 10
1207.342307581
 20
-622.5159270913
 10
1204.0754632061
 20
-620.0682623744
 10
1201.0596981445
 20
-618.1703933015
  0
LWPOLYLINE
  5
C7
330
1F
100
AcDbEntity
  8
0
  6
Continuous
 62
     7
370
    25
100
AcDbPolyline
 90
       17
 70
   128
 43
0.0
 10
1061.0710797681
 20
-860.6640736967
 10
1063.2986829575
 20
-861.8706901758
 10
1067.0101186323
 20
-863.554712398
 10
1070.8833613269
 20
-864.9251561998
 10
1074.9086277041
 20
-865.9785559941
 10
1079.075755105
 20
-866.7122492072
 10
1083.3742068175
 20
-867.1243914884
 10
1087.7931352965
 20
-867.2139262974
 10
1092.3213716271
 20
-866.9806396565
 10
1096.9474808424
 20
-866.4251160491
 10
1101.6597724604
 20
-865.5487505883
 10
1106.4463452648
 20
-864.3537779181
 10
1111.2951096954
 20
-862.8431984512
 10
1116.1938141902
 20
-861.0208361663
 10
1121.130086015
 20
-858.8913028703
 10
1126.0914553003
 20
-856.4599478201
 10
1131.0653889563
 20
-853.7329476498
  0
LWPOLYLINE
  5
C8
330
1F
100
AcDbEntity
  8
0
  6
Continuous
 62
     7
370
    25
100
AcDbPolyline
 90
      118
 70
   128
 43
0.0
 10
643.1617116235
 20
-558.5175742996
 10
647.8453720312
 20
-555.668494119
 10
652.5155283252
 20
-552.5371083135
 10
657.1587155753
 20
-549.1324432649
 10
661.7615452423
 20
-545.464320806
 10
666.3107469959
 20
-541.5433097457
 10
670.7932039464
 20
-537.3807237805
 10
675.1959928166
 20
-532.9885618022
 10
679.5064168683
 20
-528.3794828057
 10
683.7120506836
 20
-523.5667800372
 10
687.8007665071
 20
-518.5643292856
 10
691.760779026
 20
-513.3865508635
 10
695.5806638104
 20
-508.0483807108
 10
699.2494152644
 20
-502.5652004382
 10
702.7564492606
 20
-496.9528297226
 10
706.0916558238
 20
-491.2274472239
 10
709.2454202042
 20
-485.4055540845
 10
712.2086492192
 20
-479.5039404719
 10
714.9727975952
 20
-473.5396277856
 10
717.5298943096
 20
-467.5298047809
 10
719.8725689321
 20
-461.4918062782
 10
721.9940674304
 20
-455.4430340765
 10
723.8882679747
 20
-449.4009356621
 10
725.5497178164
 20
-443.3829251234
 10
726.9736174832
 20
-437.4063588152
 10
728.1558681941
 20
-431.488468442
 10
729.0930613226
 20
-425.6463108665
 10
729.7824889339
 20
-419.8967384529
 10
730.2221648575
 20
-414.2563260639
 10
730.4108246882
 20
-408.7413340836
 10
730.3479205168
 20
-403.3676670667
 10
730.0336420041
 20
-398.1508130934
 10
729.4688847708
 20
-393.1058211431
 10
728.6552820071
 20
-388.2472325602
 10
727.5951781316
 20
-383.5890575724
 10
726.2916340591
 20
-379.1447231999
 10
724.7484008591
 20
-374.9270511989
 10
722.9699355608
 20
-370.9481941847
 10
720.9613590064
 20
-367.2196325855
 10
718.7284716559
 20
-363.7521046817
 10
716.2777009036
 20
-360.5556218098
 10
713.6161168834
 20
-357.639392318
 10
710.7514008585
 20
-355.0118246048
 10
707.691797806
 20
-352.680496696
 10
704.4461427592
 20
-350.6521349545
 10
701.0237923183
 20
-348.9325745295
 10
697.4346035776
 20
-347.5267836896
 10
693.6889341251
 20
-346.4388212366
 10
689.7975840908
 20
-345.6718091237
 10
685.7717698046
 20
-345.2279659131
 10
681.6230974549
 20
-345.1085733133
 10
677.3635341127
 20
-345.3139685719
 10
673.0053550475
 20
-345.8435688052
 10
668.5611305569
 20
-346.6958420995
 10
664.0436732828
 20
-347.8683379247
 10
659.4660066015
 20
-349.3576627965
 10
654.841331696
 20
-351.1595297033
 10
650.1829814587
 20
-353.2687421324
 10
645.504386246
 20
-355.6792260058
 10
640.8190370009
 20
-358.3840205519
 10
636.1404417882
 20
-361.3753277306
 10
631.4820915509
 20
-364.6445320028
 10
626.8574166454
 20
-368.1822010865
 10
622.2797499641
 20
-371.9781376651
 10
617.76229269
 20
-376.0213869883
 10
613.3180681994
 20
-380.3003060704
 10
608.9598891342
 20
-384.8025522799
 10
604.700325792
 20
-389.5151441739
 10
600.5516534424
 20
-394.4244919115
 10
596.5258391562
 20
-399.5164413592
 10
592.6344891218
 20
-404.7763105887
 10
588.8888196693
 20
-410.1889309386
 10
585.2996309286
 20
-415.7387108912
 10
581.8772804877
 20
-421.4096330281
 10
578.6316254409
 20
-427.1853483221
 10
575.5720223884
 20
-433.0492187229
 10
572.7073063635
 20
-438.9843171558
 10
570.0457223433
 20
-444.9735461466
 10
567.594951591
 20
-450.9996286993
 10
565.3620642405
 20
-457.045193463
 10
563.3534876861
 20
-463.0928081895
 10
561.5750223878
 20
-469.1250375298
 10
560.0317891878
 20
-475.1244886573
 10
558.7282451153
 20
-481.0738629803
 10
557.6681412398
 20
-486.9560078498
 10
556.8545384761
 20
-492.7539621887
 10
556.2897812428
 20
-498.4510089613
 10
555.9755027301
 20
-504.0307211815
 10
555.9125985587
 20
-509.4770158089
 10
556.1012583894
 20
-514.7741857852
 10
556.5409343131
 20
-519.9069591581
 10
557.2303619243
 20
-524.8605353951
 10
558.1675550528
 20
-529.6206328166
 10
559.3498057637
 20
-534.1735255738
 10
560.7737054305
 20
-538.5060923202
 10
562.4351552722
 20
-542.6058337031
 10
564.3293558165
 20
-546.4609347207
 10
566.4508543148
 20
-550.0602768938
 10
568.7935289374
 20
-553.3934808505
 10
571.3506256517
 20
-556.4509428316
 10
574.1147740277
 20
-559.2238377342
 10
577.0780030427
 20
-561.7041799499
 10
580.2317674231
 20
-563.8848142421
 10
583.5669739863
 20
-565.7594492084
 10
587.0740079825
 20
-567.3226846602
 10
590.7427594365
 20
-568.5700146666
 10
594.5626442209
 20
-569.4978397241
 10
598.5226567398
 20
-570.1034850125
 10
602.6113725633
 20
-570.3852049579
 10
606.8170063786
 20
-570.3421862801
 10
611.1274304303
 20
-569.9745555988
 10
615.5302193005
 20
-569.2833657498
 10
620.012676251
 20
-568.27061708
 10
624.5618780046
 20
-566.9392315961
 10
629.1647076716
 20
-565.2930400397
 10
633.8078949217
 20
-563.3367951996
 10
638.4780512157
 20
-561.0761333209
 10
643.1617116235
 20
-558.5175742996
  0
LWPOLYLINE
  5
C9
330
1F
100
AcDbEntity
  8
0
  6
Continuous
 62
     7
370
    25
100
AcDbPolyline
 90
       90
 70
   128
 43
0.0
 10
936.9645792908
 20
-873.9605350715
 10
940.3568385281
 20
-871.8588498355
 10
943.4838452573
 20
-869.6242641322
 10
946.3300219373
 20
-867.2679118
 10
948.8811779216
 20
-864.8015250644
 10
951.1246151552
 20
-862.2373978518
 10
953.0491495766
 20
-859.5883004408
 10
954.6452006803
 20
-856.8674338426
 10
955.9048066633
 20
-854.0883511051
 10
956.8217008159
 20
-851.2648980072
 10
957.3913128394
 20
-848.4111423466
 10
957.6108057239
 20
-845.5412979064
 10
957.4790836514
 20
-842.6696651481
 10
956.9968025322
 20
-839.8105490954
 10
956.1663700051
 20
-836.9781954656
 10
954.9919164612
 20
-834.1867131147
 10
953.4792976783
 20
-831.4500086488
 10
951.6360474055
 20
-828.7817164721
 10
949.4713510217
 20
-826.1951318777
 10
946.9959889004
 20
-823.7031388152
 10
944.222298873
 20
-821.3181517246
 10
941.1640935813
 20
-819.0520556597
 10
937.8366086171
 20
-816.9161398532
 10
934.2564269542
 20
-814.9210419273
 10
930.4413811549
 20
-813.0767036035
 10
926.4104769782
 20
-811.3923144376
 10
922.1838033244
 20
-809.8762598319
 10
917.7824053002
 20
-808.536102501
 10
913.2282170476
 20
-807.3785132819
 10
908.5439320104
 20
-806.4092570672
 10
903.7528758351
 20
-805.6331680942
 10
898.8789273454
 20
-805.0541073659
 10
893.946360492
 20
-804.6749656923
 10
888.97975479
 20
-804.4976271942
 10
884.0038530738
 20
-804.522975386
 10
879.0434429586
 20
-804.7508886132
 10
874.1232383027
 20
-805.180226367
 10
869.2677501326
 20
-805.8088520939
 10
864.5011654712
 20
-806.633633196
 10
859.8472380187
 20
-807.6504615599
 10
855.3291511761
 20
-808.8542718054
 10
850.9694126775
 20
-810.2390656155
 10
846.7897413208
 20
-811.7979436714
 10
842.8109583077
 20
-813.5231379667
 10
839.0528940598
 20
-815.4060595184
 10
835.5342624362
 20
-817.4373223181
 10
832.2725932333
 20
-819.6068066296
 10
829.2841452564
 20
-821.9037091721
 10
826.5837966723
 20
-824.3165820869
 10
824.1850035209
 20
-826.8334055501
 10
822.0997170681
 20
-829.4416415664
 10
820.3383278289
 20
-832.1282966977
 10
818.9096102505
 20
-834.8799874514
 10
817.8206805647
 20
-837.6830011081
 10
817.0769651785
 20
-840.5233747969
 10
816.6821651117
 20
-843.3869586033
 10
816.6382559981
 20
-846.2594855206
 10
816.9454485719
 20
-849.1266459631
 10
817.6022123755
 20
-851.9741561967
 10
818.6052836624
 20
-854.7878267691
 10
819.9496548603
 20
-857.553644627
 10
821.628637791
 20
-860.2578248189
 10
823.6338584026
 20
-862.8869017356
 10
825.9553305262
 20
-865.427774731
 10
828.5814986813
 20
-867.8677814944
 10
831.4992624419
 20
-870.1947729442
 10
834.694096292
 20
-872.3971520052
 10
838.150081729
 20
-874.4639468861
 10
841.8499973201
 20
-876.3848630681
 10
845.7754161668
 20
-878.1503274041
 10
849.9067826252
 20
-879.751544574
 10
854.2235089478
 20
-881.1805407096
 10
858.7040903637
 20
-882.4301933324
 10
863.3262087993
 20
-883.4942790652
 10
868.0668336362
 20
-884.3674953016
 10
872.9023468343
 20
-885.0454929009
 10
877.8086588352
 20
-885.5248913946
 10
882.7613297354
 20
-885.8033063584
 10
887.7356825549
 20
-885.8793478923
 10
892.7069375811
 20
-885.7526373471
 10
897.6503230037
 20
-885.4238073254
 10
902.5412171606
 20
-884.8944955978
 10
907.355251271
 20
-884.1673405417
 10
912.0684411437
 20
-883.2459598517
 10
916.6573096672
 20
-882.1349497787
 10
921.0989895418
 20
-880.839841031
 10
925.3713595991
 20
-879.3670900296
 10
929.4531238267
 20
-877.7240272058
 10
933.3239592118
 20
-875.9188446454
 10
936.9645792908
 20
-873.9605350715
  0
LWPOLYLINE
  5
CA
330
1F
100
AcDbEntity
  8
0
  6
Continuous
 62
     7
370
    25
100
AcDbPolyline
 90
       95
 70
   128
 43
0.0
 10
943.6820915204
 20
-877.8384723374
 10
947.3341287855
 20
-875.5843447735
 10
950.7172052783
 20
-873.1944331553
 10
953.8162182682
 20
-870.6794147376
 10
956.6173149424
 20
-868.0505165006
 10
959.1079908577
 20
-865.3194826452
 10
961.2771258315
 20
-862.4985112948
 10
963.1150260887
 20
-859.6001997509
 10
964.6134861647
 20
-856.6374965921
 10
965.765809979
 20
-853.6236286808
 10
966.5668556159
 20
-850.572057064
 10
967.0130432277
 20
-847.4964176669
 10
967.1023813757
 20
-844.4104391759
 10
966.8344696647
 20
-841.3279080633
 10
966.2105040118
 20
-838.2625895119
 10
965.2332740113
 20
-835.2281772325
 10
963.907139228
 20
-832.2382219923
 10
962.2380291965
 20
-829.3060738288
 10
960.2333933725
 20
-826.4448349088
 10
957.9021840098
 20
-823.6672827343
 10
955.2548205997
 20
-820.9858191998
 10
952.3031180893
 20
-818.4124230709
 10
949.0602625151
 20
-815.9585872563
 10
945.5407390577
 20
-813.6352711916
 10
941.7602658572
 20
-811.4528504671
 10
937.7357283242
 20
-809.4210728227
 10
933.4850994553
 20
-807.5490121477
 10
929.027363607
 20
-805.8450305587
 10
924.3824292383
 20
-804.3167401926
 10
919.5710464282
 20
-802.9709616733
 10
914.6146982155
 20
-801.8137100448
 10
909.5355182812
 20
-800.8501533335
 10
904.3562027031
 20
-800.0845920186
 10
899.0998769304
 20
-799.5204491474
 10
893.7900141232
 20
-799.1602414432
 10
888.450335055
 20
-799.0055793046
 10
883.1046843051
 20
-799.0571531196
 10
877.7769433317
 20
-799.3147317451
 10
872.490893494
 20
-799.7771655482
 10
867.2701554664
 20
-800.4423879265
 10
862.1380469929
 20
-801.3074305154
 10
857.117480154
 20
-802.3684277499
 10
852.2308849756
 20
-803.6206427162
 10
847.5000829885
 20
-805.0584793169
 10
842.9462042519
 20
-806.6755180072
 10
838.5895925226
 20
-808.4645401259
 10
834.4496956078
 20
-810.4175486143
 10
830.5450090594
 20
-812.5258248515
 10
826.8929717943
 20
-814.7799524155
 10
823.5098953015
 20
-817.1698640337
 10
820.4108823115
 20
-819.6848824513
 10
817.6097856373
 20
-822.3137806883
 10
815.119109722
 20
-825.0448145437
 10
812.9499747482
 20
-827.8657858942
 10
811.112074491
 20
-830.764097438
 10
809.613614415
 20
-833.7268005968
 10
808.4612906008
 20
-836.7406685082
 10
807.6602449638
 20
-839.7922401249
 10
807.2140573521
 20
-842.8678795221
 10
807.1247192041
 20
-845.9538580131
 10
807.392630915
 20
-849.0363891256
 10
808.016596568
 20
-852.1017076771
 10
808.9938265684
 20
-855.1361199564
 10
810.3199613518
 20
-858.1260751966
 10
811.9890713832
 20
-861.0582233602
 10
813.9937072073
 20
-863.9194622802
 10
816.32491657
 20
-866.6970144546
 10
818.97227998
 20
-869.3784779891
 10
821.9239824905
 20
-871.951874118
 10
825.1668380646
 20
-874.4057099327
 10
828.6863615221
 20
-876.7290259973
 10
832.4668347226
 20
-878.9114467218
 10
836.4913722556
 20
-880.9432243662
 10
840.7420011245
 20
-882.8152850412
 10
845.1997369728
 20
-884.5192666302
 10
849.8446713414
 20
-886.0475569963
 10
854.6560541516
 20
-887.3933355157
 10
859.6124023643
 20
-888.5505871441
 10
864.6915822986
 20
-889.5141438554
 10
869.8708978766
 20
-890.2797051704
 10
875.1272236494
 20
-890.8438480415
 10
880.4370864565
 20
-891.2040557457
 10
885.7767655248
 20
-891.3587178844
 10
891.1224162746
 20
-891.3071440693
 10
896.450157248
 20
-891.0495654438
 10
901.7362070857
 20
-890.5871316407
 10
906.9569451133
 20
-889.9219092624
 10
912.0890535868
 20
-889.0568666735
 10
917.1096204258
 20
-887.995869439
 10
921.9962156042
 20
-886.7436544727
 10
926.7270175912
 20
-885.3058178721
 10
931.2808963279
 20
-883.6887791817
 10
935.6375080571
 20
-881.899757063
 10
939.7774049719
 20
-879.9467485747
 10
943.6820915204
 20
-877.8384723374
  0
ENDSEC
  0
SECTION
  2
OBJECTS
  0
DICTIONARY
  5
C
330
0
100
AcDbDictionary
281
     1
  3
ACAD_GROUP
350
D
  3
ACAD_LAYOUT
350
1A
  3
ACAD_MLINESTYLE
350
17
  3
ACAD_PLOTSETTINGS
350
19
  3
ACAD_PLOTSTYLENAME
350
E
  3
ACAD_SCALELIST
350
47
  0
DICTIONARY
  5
D
102
{ACAD_REACTORS
330
C
102
}
330
C
100
AcDbDictionary
281
     1
  0
DICTIONARY
  5
1A
102
{ACAD_REACTORS
330
C
102
}
330
C
100
AcDbDictionary
281
     1
  3
Layout1
350
1E
  3
Layout2
350
26
  3
Model
350
22
  0
DICTIONARY
  5
17
102
{ACAD_REACTORS
330
C
102
}
330
C
100
AcDbDictionary
281
     1
  3
Standard
350
18
  0
DICTIONARY
  5
19
102
{ACAD_REACTORS
330
C
102
}
330
C
100
AcDbDictionary
281
     1
  0
ACDBDICTIONARYWDFLT
  5
E
102
{ACAD_REACTORS
330
C
102
}
330
C
100
AcDbDictionary
281
     1
  3
Normal
350
F
100
AcDbDictionaryWithDefault
340
F
  0
DICTIONARY
  5
47
102
{ACAD_REACTORS
330
C
102
}
330
C
100
AcDbDictionary
281
     1
  3
A0
350
48
  3
A1
350
49
  3
A2
350
4A
  3
A3
350
4B
  3
A4
350
4C
  3
A5
350
4D
  3
A6
350
4E
  3
A7
350
4F
  3
A8
350
50
  3
A9
350
51
  3
B0
350
52
  3
B1
350
53
  3
B2
350
54
  3
B3
350
55
  3
B4
350
56
  3
B5
350
57
  3
B6
350
58
  3
B7
350
59
  3
B8
350
5A
  3
B9
350
5B
  3
C0
350
5C
  3
C1
350
5D
  3
C2
350
5E
  3
C3
350
5F
  3
C4
350
60
  3
C5
350
61
  3
C6
350
62
  3
C7
350
63
  3
C8
350
64
  3
C9
350
65
  3
D0
350
66
  3
D1
350
67
  3
D2
350
68
  0
LAYOUT
  5
1E
102
{ACAD_REACTORS
330
1A
102
}
330
1A
100
AcDbPlotSettings
  1

  2
none_device
  4

  6

 40
0.0
 41
0.0
 42
0.0
 43
0.0
 44
0.0
 45
0.0
 46
0.0
 47
0.0
 48
0.0
 49
0.0
140
0.0
141
0.0
142
1.0
143
1.0
 70
   688
 72
     1
 73
     0
 74
     5
  7

 75
    16
147
1.0
148
0.0
149
0.0
100
AcDbLayout
  1
Layout1
 70
     1
 71
     1
 10
0.0
 20
0.0
 11
420.0
 21
297.0
 12
0.0
 22
0.0
 32
0.0
 14
1.0000000000E+20
 24
1.0000000000E+20
 34
1.0000000000E+20
 15
-1.0000000000E+20
 25
-1.0000000000E+20
 35
-1.0000000000E+20
146
0.0
 13
0.0
 23
0.0
 33
0.0
 16
1.0
 26
0.0
 36
0.0
 17
0.0
 27
1.0
 37
0.0
 76
     0
330
1B
  0
LAYOUT
  5
26
102
{ACAD_REACTORS
330
1A
102
}
330
1A
100
AcDbPlotSettings
  1

  2
none_device
  4

  6

 40
0.0
 41
0.0
 42
0.0
 43
0.0
 44
0.0
 45
0.0
 46
0.0
 47
0.0
 48
0.0
 49
0.0
140
0.0
141
0.0
142
1.0
143
1.0
 70
   688
 72
     1
 73
     0
 74
     5
  7

 75
    16
147
1.0
148
0.0
149
0.0
100
AcDbLayout
  1
Layout2
 70
     1
 71
     2
 10
0.0
 20
0.0
 11
0.0
 21
0.0
 12
0.0
 22
0.0
 32
0.0
 14
0.0
 24
0.0
 34
0.0
 15
0.0
 25
0.0
 35
0.0
146
0.0
 13
0.0
 23
0.0
 33
0.0
 16
1.0
 26
0.0
 36
0.0
 17
0.0
 27
1.0
 37
0.0
 76
     0
330
23
  0
LAYOUT
  5
22
102
{ACAD_REACTORS
330
1A
102
}
330
1A
100
AcDbPlotSettings
  1

  2
none_device
  4
Letter_(8.50_x_11.00_Inches)
  6

 40
6.35
 41
6.35
 42
6.35000508
 43
6.35000508
 44
215.9
 45
279.4
 46
0.0
 47
0.0
 48
0.0
 49
0.0
140
0.0
141
0.0
142
1.0
143
1.0
 70
  1712
 72
     1
 73
     0
 74
     0
  7

 75
     0
147
1.0
148
0.0
149
0.0
100
AcDbLayout
  1
Model
 70
     1
 71
     0
 10
0.0
 20
0.0
 11
279.4
 21
215.9
 12
0.0
 22
0.0
 32
0.0
 14
0.0
 24
0.0
 34
0.0
 15
279.4
 25
215.9
 35
0.0
146
0.0
 13
0.0
 23
0.0
 33
0.0
 16
1.0
 26
0.0
 36
0.0
 17
0.0
 27
1.0
 37
0.0
 76
     0
330
1F
331
29
  0
MLINESTYLE
  5
18
102
{ACAD_REACTORS
330
17
102
}
330
17
100
AcDbMlineStyle
  2
Standard
 70
     0
  3

 62
   256
 51
90.0
 52
90.0
 71
     2
 49
0.5
 62
   256
  6
BYLAYER
 49
-0.5
 62
   256
  6
BYLAYER
  0
ACDBPLACEHOLDER
  5
F
102
{ACAD_REACTORS
330
E
102
}
330
E
  0
SCALE
  5
48
102
{ACAD_REACTORS
330
47
102
}
330
47
100
AcDbScale
 70
     0
300
1:1
140
1.0
141
1.0
290
     1
  0
SCALE
  5
49
102
{ACAD_REACTORS
330
47
102
}
330
47
100
AcDbScale
 70
     0
300
1:2
140
1.0
141
2.0
290
     0
  0
SCALE
  5
4A
102
{ACAD_REACTORS
330
47
102
}
330
47
100
AcDbScale
 70
     0
300
1:4
140
1.0
141
4.0
290
     0
  0
SCALE
  5
4B
102
{ACAD_REACTORS
330
47
102
}
330
47
100
AcDbScale
 70
     0
300
1:5
140
1.0
141
5.0
290
     0
  0
SCALE
  5
4C
102
{ACAD_REACTORS
330
47
102
}
330
47
100
AcDbScale
 70
     0
300
1:8
140
1.0
141
8.0
290
     0
  0
SCALE
  5
4D
102
{ACAD_REACTORS
330
47
102
}
330
47
100
AcDbScale
 70
     0
300
1:10
140
1.0
141
10.0
290
     0
  0
SCALE
  5
4E
102
{ACAD_REACTORS
330
47
102
}
330
47
100
AcDbScale
 70
     0
300
1:16
140
1.0
141
16.0
290
     0
  0
SCALE
  5
4F
102
{ACAD_REACTORS
330
47
102
}
330
47
100
AcDbScale
 70
     0
300
1:20
140
1.0
141
20.0
290
     0
  0
SCALE
  5
50
102
{ACAD_REACTORS
330
47
102
}
330
47
100
AcDbScale
 70
     0
300
1:30
140
1.0
141
30.0
290
     0
  0
SCALE
  5
51
102
{ACAD_REACTORS
330
47
102
}
330
47
100
AcDbScale
 70
     0
300
1:40
140
1.0
141
40.0
290
     0
  0
SCALE
  5
52
102
{ACAD_REACTORS
330
47
102
}
330
47
100
AcDbScale
 70
     0
300
1:50
140
1.0
141
50.0
290
     0
  0
SCALE
  5
53
102
{ACAD_REACTORS
330
47
102
}
330
47
100
AcDbScale
 70
     0
300
1:100
140
1.0
141
100.0
290
     0
  0
SCALE
  5
54
102
{ACAD_REACTORS
330
47
102
}
330
47
100
AcDbScale
 70
     0
300
2:1
140
2.0
141
1.0
290
     0
  0
SCALE
  5
55
102
{ACAD_REACTORS
330
47
102
}
330
47
100
AcDbScale
 70
     0
300
4:1
140
4.0
141
1.0
290
     0
  0
SCALE
  5
56
102
{ACAD_REACTORS
330
47
102
}
330
47
100
AcDbScale
 70
     0
300
8:1
140
8.0
141
1.0
290
     0
  0
SCALE
  5
57
102
{ACAD_REACTORS
330
47
102
}
330
47
100
AcDbScale
 70
     0
300
10:1
140
10.0
141
1.0
290
     0
  0
SCALE
  5
58
102
{ACAD_REACTORS
330
47
102
}
330
47
100
AcDbScale
 70
     0
300
100:1
140
100.0
141
1.0
290
     0
  0
SCALE
  5
59
102
{ACAD_REACTORS
330
47
102
}
330
47
100
AcDbScale
 70
     0
300
1/128" = 1'-0"
140
0.0078125
141
12.0
290
     0
  0
SCALE
  5
5A
102
{ACAD_REACTORS
330
47
102
}
330
47
100
AcDbScale
 70
     0
300
1/64" = 1'-0"
140
0.015625
141
12.0
290
     0
  0
SCALE
  5
5B
102
{ACAD_REACTORS
330
47
102
}
330
47
100
AcDbScale
 70
     0
300
1/32" = 1'-0"
140
0.03125
141
12.0
290
     0
  0
SCALE
  5
5C
102
{ACAD_REACTORS
330
47
102
}
330
47
100
AcDbScale
 70
     0
300
1/16" = 1'-0"
140
0.0625
141
12.0
290
     0
  0
SCALE
  5
5D
102
{ACAD_REACTORS
330
47
102
}
330
47
100
AcDbScale
 70
     0
300
3/32" = 1'-0"
140
0.09375
141
12.0
290
     0
  0
SCALE
  5
5E
102
{ACAD_REACTORS
330
47
102
}
330
47
100
AcDbScale
 70
     0
300
1/8" = 1'-0"
140
0.125
141
12.0
290
     0
  0
SCALE
  5
5F
102
{ACAD_REACTORS
330
47
102
}
330
47
100
AcDbScale
 70
     0
300
3/16" = 1'-0"
140
0.1875
141
12.0
290
     0
  0
SCALE
  5
60
102
{ACAD_REACTORS
330
47
102
}
330
47
100
AcDbScale
 70
     0
300
1/4" = 1'-0"
140
0.25
141
12.0
290
     0
  0
SCALE
  5
61
102
{ACAD_REACTORS
330
47
102
}
330
47
100
AcDbScale
 70
     0
300
3/8" = 1'-0"
140
0.375
141
12.0
290
     0
  0
SCALE
  5
62
102
{ACAD_REACTORS
330
47
102
}
330
47
100
AcDbScale
 70
     0
300
1/2" = 1'-0"
140
0.5
141
12.0
290
     0
  0
SCALE
  5
63
102
{ACAD_REACTORS
330
47
102
}
330
47
100
AcDbScale
 70
     0
300
3/4" = 1'-0"
140
0.75
141
12.0
290
     0
  0
SCALE
  5
64
102
{ACAD_REACTORS
330
47
102
}
330
47
100
AcDbScale
 70
     0
300
1" = 1'-0"
140
1.0
141
12.0
290
     0
  0
SCALE
  5
65
102
{ACAD_REACTORS
330
47
102
}
330
47
100
AcDbScale
 70
     0
300
1-1/2" = 1'-0"
140
1.5
141
12.0
290
     0
  0
SCALE
  5
66
102
{ACAD_REACTORS
330
47
102
}
330
47
100
AcDbScale
 70
     0
300
3" = 1'-0"
140
3.0
141
12.0
290
     0
  0
SCALE
  5
67
102
{ACAD_REACTORS
330
47
102
}
330
47
100
AcDbScale
 70
     0
300
6" = 1'-0"
140
6.0
141
12.0
290
     0
  0
SCALE
  5
68
102
{ACAD_REACTORS
330
47
102
}
330
47
100
AcDbScale
 70
     0
300
1'-0" = 1'-0"
140
12.0
141
12.0
290
     0
  0
ENDSEC
  0
EOF
